Last Kiss


kali ini entry nak cerita pasal lagu Taylor Swift... Last kiss

lagu ini memang sedih gile huhu...


x yah kowt letak lirik die?? dlm video tue dah ader.. huhu.. bile tgk2 semua lagu2 taylor swift ini banyak betul lagu2 yang betul2 terjadi huhu.. sedih plak bile dengar lagu die...

ini tab lagu ini.. untuk sapa2 yg nak :)



INTRO: 
e|------3-----------3-----------3-----------3-----| 
B|------0-----------0-----------0-----------0-----| 
G|----0---0-------0---0-------0---0-------0---0---| 
D|--0-------0---0-------0---0-------0---0-------0-| 
A|------------------------------------------------| 
E|3-----------3-----------0-----------0-----------|  

e|------3-----------3-----------3-----------3------| 
B|------0-----------0-----------0-----------0------| 
G|----0---0-------0---0-------0---0-------0---0----| 
D|-------------------------------------------------| 
A|--2-------2---2-------2---2-------2---2-------2--| 
E|0-----------0-----------0-----------0------------|  

e|------3-----------3----------3-----------3------| 
B|------3-----------3----------3-----------3------| 
G|----0---0-------0---0------0---0-------0--------| 
D|--2-------2---2-------2---2------2---2----------| 
A|3-----------3-----------3----------3------------| 
E|------------------------------------------------|   
VERSE 1: 
I still remember the look on your face  Lit through the darkness at 1:58 
e|------3-----------3-----------3-----------3-----| 
B|------0-----------0-----------0-----------0-----| 
G|----0---0-------0---0-------0---0-------0---0---| 
D|--0-------0---0-------0-------------------------| 
A|--------------------------2-------2---2-------2-| 
E|3-----------3-----------0-----------0-----------| 
The words that you whispered for just us to know You told me you loved me so why did you go 
e|------3-----------3-----------2-----------2-----| 
B|------3-----------3-----------3-----------3-----| 
G|----0---0-------0---0---------------------------| 
D|--2-------2---2-------2-----0---0-------0---0---| 
A|3-----------3-------------0-------0---0-------0-| 
E|------------------------2-----------2-----------|  
Away 
e|------3-----------3-----------3-----------3------| 
B|------0-----------0-----------0-----------0------| 
G|----0---0-------0---0-------0---0-------0---0----| 
D|--0-------0---0-------0---0-------0---0-------0--| 
A|-------------------------------------------------| 
E|3-----------3-----------3-----------3------------|  
Away? 
e|------3-----------3-----------3-----------3------| 
B|------0-----------0-----------0-----------0------| 
G|----0---0-------0---0-------0---0-------0---0----| 
D|-------------------------------------------------| 
A|--2-------2---2-------2---2-------2---2-------2--| 
E|0-----------0-----------0-----------0------------|  


e|------3-----------3----------3-----------3------| 
B|------3-----------3----------3-----------3------| 
G|----0---0-------0---0------0---0-------0--------| 
D|--2-------2---2-------2---2------2---2----------| 
A|3-----------3-----------3----------3------------| 
E|------------------------------------------------|   
VERSE 2: 
I do recall now The smell of the rain  Fresh on the pavement I ran off the plane 
e|------3-----------3-----------3-----------3-----| 
B|------0-----------0-----------0-----------0-----| 
G|----0---0-------0---0-------0---0-------0---0---| 
D|--0-------0---0-------0-------------------------| 
A|--------------------------2-------2---2-------2-| 
E|3-----------3-----------0-----------0-----------|  
That July 9th The beat of your heart  It jumps through your shirt I can still feel your arms. 
And 
e|------3-----------3-----------2-----------2-----| 
B|------3-----------3-----------3-----------3-----| 
G|----0---0-------0---0---------------------------| 
D|--2-------2---2-------2-----0---0-------0---0---| 
A|3-----------3-------------0-------0---0-------0-| 
E|------------------------2-----------2-----------|  
CHORUS: 
I'll go sit on the floor wearing your clothes. All that I know is I  
e|------3-----------3-----------3-----------3------| 
B|------3-----------3-----------0-----------0------| 
G|----0---0-------0---0-------0---0-------0---0----| 
D|--2-------2---2-------2---0-------0---0-------0--| 
A|3-----------3------------------------------------| 
E|------------------------3-----------3------------| 
don't know how to be something you miss. Never thought we'd have a 
e|------3-----------3-----------2-----------2-----| 
B|------3-----------3-----------3-----------3-----| 
G|----0---0-------0---0---------------------------| 
D|--2-------2---2-------2-----0---0-------0---0---| 
A|3-----------3-------------0-------0---0-------0-| 
E|------------------------2-----------2-----------|  
last kiss . Never imagined we'd  
e|------3-----------3-----------3-----------3------| 
B|------0-----------0-----------0-----------0------| 
G|----0---0-------0---0-------0---0-------0---0----| 
D|--0-------0---0-------0---0-------0---0-------0--| 
A|-------------------------------------------------| 
E|3-----------3-----------3-----------3------------|  
end like this  
e|------3-----------3-----------3-----------3------| 
B|------0-----------0-----------0-----------0------| 
G|----0---0-------0---0-------0---0-------0---0----| 
D|-------------------------------------------------| 
A|--2-------2---2-------2---2-------2---2-------2--| 
E|0-----------0-----------0-----------0------------|  
Your name, forever the name on my lips. 
e|------3-----------3-----------2-----------2-----| 
B|------3-----------3-----------3-----------3-----| 
G|----0---0-------0---0---------------------------| 
D|--2-------2---2-------2-----0---0-------0---0---| 
A|3-----------3-------------0-------0---0-------0-| 
E|------------------------2-----------2-----------|  
VERSE 3: 
I do remember The swing in your step.  The life of the party, you're showing off again  
e|------3-----------3-----------3-----------3-----| 
B|------0-----------0-----------0-----------0-----| 
G|----0---0-------0---0-------0---0-------0---0---| 
D|--0-------0---0-------0-------------------------| 
A|--------------------------2-------2---2-------2-| 
E|3-----------3-----------0-----------0-----------| 
And I roll my eyes and then you pull me in. I'm not much for dancing, but for you I did 
e|------3-----------3-----------2-----------2-----| 
B|------3-----------3-----------3-----------3-----| 
G|----0---0-------0---0---------------------------| 
D|--2-------2---2-------2-----0---0-------0---0---| 
A|3-----------3-------------0-------0---0-------0-| 
E|------------------------2-----------2-----------|  
Because I love your handshake meetin' my father.  I love how you walk with your hands in your pockets. 
e|------3-----------3-----------3-----------3-----| 
B|------0-----------0-----------0-----------0-----| 
G|----0---0-------0---0-------0---0-------0---0---| 
D|--0-------0---0-------0-------------------------| 
A|--------------------------2-------2---2-------2-| 
E|3-----------3-----------0-----------0-----------|  
How you kissed me when I was in the middle of saying something  There's not a day when I don't miss those rude interruptions. And 
e|------3-----------3-----------2-----------2-----| 
B|------3-----------3-----------3-----------3-----| 
G|----0---0-------0---0---------------------------| 
D|--2-------2---2-------2-----0---0-------0---0---| 
A|3-----------3-------------0-------0---0-------0-| 
E|------------------------2-----------2-----------|  
CHORUS: I'll go sit on the floor wearing your clothes. All that I know is I  
e|------3-----------3-----------3-----------3------| 
B|------3-----------3-----------0-----------0------| 
G|----0---0-------0---0-------0---0-------0---0----| 
D|--2-------2---2-------2---0-------0---0-------0--| 
A|3-----------3------------------------------------| 
E|------------------------3-----------3------------|  
don't know how to be something you miss. Never thought we'd have a 
e|------3-----------3-----------2-----------2-----| 
B|------3-----------3-----------3-----------3-----| 
G|----0---0-------0---0---------------------------| 
D|--2-------2---2-------2-----0---0-------0---0---| 
A|3-----------3-------------0-------0---0-------0-| 
E|------------------------2-----------2-----------|  
last kiss . Never imagined we'd  
e|------3-----------3-----------3-----------3------| 
B|------0-----------0-----------0-----------0------| 
G|----0---0-------0---0-------0---0-------0---0----| 
D|--0-------0---0-------0---0-------0---0-------0--| 
A|-------------------------------------------------| 
E|3-----------3-----------3-----------3------------|  
end like this  
e|------3-----------3-----------3-----------3------| 
B|------0-----------0-----------0-----------0------| 
G|----0---0-------0---0-------0---0-------0---0----| 
D|-------------------------------------------------| 
A|--2-------2---2-------2---2-------2---2-------2--| 
E|0-----------0-----------0-----------0------------|  
Your name, forever the name on my lips. 
e|------3-----------3-----------2-----------2-----| 
B|------3-----------3-----------3-----------3-----| 
G|----0---0-------0---0---------------------------| 
D|--2-------2---2-------2-----0---0-------0---0---| 
A|3-----------3-------------0-------0---0-------0-| 
E|------------------------2-----------2-----------|  
Ooooo 
e|------3-----------3-----------2-----------2-----| 
B|------3-----------3-----------3-----------3-----| 
G|----0---0-------0---0---------------------------| 
D|--2-------2---2-------2-----0---0-------0---0---| 
A|3-----------3-------------0-------0---0-------0-| 
E|------------------------2-----------2-----------|  
BRIDGE: 
So I watch your life in pictures like I used to watch you  
e|------3-----------3-----------3-----------3------| 
B|------0-----------0-----------3-----------3------| 
G|----0---0-------0---0-------0---0-------0---0----| 
D|--0-------0---0-------0---2-------2---2-------2--| 
A|------------------------3-----------3------------| 
E|3-----------3------------------------------------|   
Sleep. And I feel you forget me like I used to feel you  
e|------3-----------3-----------3-----------3------| 
B|------0-----------0-----------3-----------3------|
G|----0---0-------0---0-------0---0-------0---0----|
D|--0-------0---0-------0---2-------2---2-------2--|
A|------------------------3-----------3------------|
E|3-----------3------------------------------------|
Breathe. And I keep up with our old friends just to ask them how you
e|------3-----------3-----------2-----------2------|
B|------0-----------0-----------3-----------3------|
G|----0---0-------0---0----------------------------|
D|----------------------------0---0-------0---0----|
A|--2-------2---2-------2---0-------0---0-------0--|
E|0-----------0-----------2-----------2------------|
Are. Hope it's nice where you are.
e|------3-----------3-----------2-----------2-----|
B|------3-----------3-----------3-----------3-----|
G|----0---0-------0---0---------------------------|
D|--2-------2---2-------2-----0---0-------0---0---|
A|3-----------3-------------0-------0---0---------|
E|------------------------2-----------2-----------|
And I hope the sun shines And it's a beautiful day
And something reminds you You wish you had stayed
e|------3-----------3-----------3-----------3-----|
B|------0-----------0-----------0-----------0-----|
G|----0---0-------0---0-------0---0-------0---0---|
D|--0-------0---0-------0-------------------------|
A|--------------------------2-------2---2-------2-|
E|3-----------3-----------0-----------0-----------|
You can plan for a change in the weather and time But I never planned on you changing your mind
e|------3-----------3-----------2-----------2-----|
B|------3-----------3-----------3-----------3-----|
G|----0---0-------0---0---------------------------|
D|--2-------2---2-------2-----0---0-------0---0---|
A|3-----------3-------------0-------0---0-------0-|
E|------------------------2-----------2-----------|
CHORUS:
I'll go sit on the floor wearing your clothes. All that I know is I
e|------3-----------3-----------3-----------3------|
B|------3-----------3-----------0-----------0------|
G|----0---0-------0---0-------0---0-------0---0----|
D|--2-------2---2-------2---0-------0---0-------0--|
A|3-----------3------------------------------------|
E|------------------------3-----------3------------|
don't know how to be something you miss. Never thought we'd have a
e|------3-----------3-----------2-----------2-----|
B|------3-----------3-----------3-----------3-----|
G|----0---0-------0---0---------------------------|
D|--2-------2---2-------2-----0---0-------0---0---|
A|3-----------3-------------0-------0---0-------0-|
E|------------------------2-----------2-----------|
last kiss . Never imagined we'd
e|------3-----------3-----------3-----------3------|
B|------0-----------0-----------0-----------0------|
G|----0---0-------0---0-------0---0-------0---0----|
D|--0-------0---0-------0---0-------0---0-------0--|
A|-------------------------------------------------|
E|3-----------3-----------3-----------3------------|
end like this
e|------3-----------3-----------3-----------3------|
B|------0-----------0-----------0-----------0------|
G|----0---0-------0---0-------0---0-------0---0----|
D|-------------------------------------------------|
A|--2-------2---2-------2---2-------2---2-------2--|
E|0-----------0-----------0-----------0------------|
Your name, forever the name on my lips. Just like our
e|------3-----------3-----------2-----------2-----|
B|------3-----------3-----------3-----------3-----|
G|----0---0-------0---0---------------------------|
D|--2-------2---2-------2-----0---0-------0---0---|
A|3-----------3-------------0-------0---0-------0-|
E|------------------------2-----------2-----------|
last kiss. Forever the name on my
e|------3-----------3-----------3-----------3------|
B|------0-----------0-----------0-----------0------|
G|----0---0-------0---0-------0---0-------0---0----|
D|--0-------0---0-------0---0-------0---0-------0--|
A|-------------------------------------------------|
E|3-----------3-----------3-----------3------------|
lips. Forever the name on my
e|------3-----------3-----------3-----------3------|
B|------0-----------0-----------0-----------0------|
G|----0---0-------0---0-------0---0-------0---0----|
D|-------------------------------------------------|
A|--2-------2---2-------2---2-------2---2-------2--|
E|0-----------0-----------0-----------0------------|
lips. Just Like our last.
e|------3-----------3-----------3-----------3-----|
B|------3-----------3-----------3-----------3-----|
G|----0---0-------0---0-------0---0-------0-------|
D|--2-------2---2-------2---2-------2---2---------|
A|3-----------3-----------3-----------3-----------|
E|----------------------------------------------3-|









source  : click me


tambah lagi satu lagu..
The story of us

[update] mcm huru hara je tab aq nie :P

[update 7/3/13 link video  story of us dah  mati.. re-updated]

Comments

cik zaza said…
rajinnya ko..huhu
kei said…
bosan beb haha

Popular posts from this blog

Makeup Review : Anti-Acne Gel (NuTeen)

Makeup Review : Biore UV Perfect Block Milk (Biore)

Makeup Review : Facial Foam Pore & Oil Clear (Biore)

LinkWithin

Related Posts Plugin for WordPress, Blogger...